Sei sulla pagina 1di 8

=====================================================================

|
TABLATURAS Y ACORDES DE MSICA EN ESPAOL
|
+-------------------------- lacuerda.net ---------------------------+
| ARTISTA: Rata Blanca
|
| CANCION: TALISMAN
|
| AUTOR:
Walter Giardino
|
| ALBUM:
El Reino Olvidado (2008)
|
+------------------------------------------------------TAB-rata0884-+
| TRANS:
Diego
|
=====================================================================
FA#m
SI
MI
LA
1|-----------------------------------------------------|
2|-----------------------------------------------------|
3|-6h8h9-8-6-------------------6/8/6-------------------|
4|----------7---6/7p6-4-------------9-6---4/6p4--------|
5|----------------------7-6--------------------7-6-4---|
6|-----------------------------------------------------|
FA#m
SOL#m
DO#m SI MI
1|-------------------------------------------------------------|
2|-------------------------------------------------------------|
3|---------------11-9h11p9-8h9-8---11/13-11-9h11p9-8-8-9-11----|
4|---9-11-9-7----------------------------------------------9---|
5|-12--------9-------------------------------------------------|
6|-------------------------------------------------------------|
FA#m
SI
MI
LA
1|------------------------------------------------------------|
2|------9-----------------------------------------------------|
3|-9h11---11-9----------------------9h11p9-8------------------|
4|------------11---9h11-9-------------------9---7h9-7-6-------|
5|-----------------------12-11-9------------------------9-7---|
6|------------------------------------------------------------|
FA#m
RE
DO#m
SOL#m
1|-----------------------------------------------------------------|
2|-----------------------------------------------------------------|
3|-6h8h9-8-6------------11-9h11p9-8h9-7---6-5---6-5----------------|
4|----------7h9p7-6-7-------------------------7-----7-6------------|
5|------------------------------------------------------9-7-6------|
6|-----------------------------------------------------------9-8-9-|
Fui como un angel caido
preso de mi libertad
DO#m
SOL#m
SI
FA#
Hasta que te conoci por esas calles
LA
SI
DO#m
Fue porque quizo el destino
que te pudiera encontrar
DO#m
SOL#m SI
FA#
Y hoy no se como seguir cuando
LA
SI
no estas ahh ahh
DO# SI DO#
1|-------------------|
2|-------------------|
3|-------------------|

4|----------/4---4/6-|
5|---4---6-----------|
6|-------------------|
Te agradesco que sanes mi alma
FA#m
SI
1|------------|
2|------------|
3|------------|
4|------------|
5|----------2-|
6|---2---4-5--|
1|-----------------|
2|---5p4p0---------|
3|---------1-------|
4|--------------2--|
5|--------------2--|
6|------------0----|
Sobrevivo encontrando en tus ojos
MI
LA
1|-------------------|
2|-------------------|
3|-------------------|
4|-------------------|
5|-------------------|
6|---2-4-5---4---2---|
El resplandor de un verde talisman
FA#m
SOL#m
DO#m SI MI
1|-----------------------|
2|-----------------------|
3|-----------------------|
4|-----------------------|
5|---4---6---7---4-------|
6|-------------------2---|
Si al final esta vida es un sueo
FA#m
SI
1|------------|
2|------------|
3|------------|
4|------------|
5|----------2-|
6|---2---4-5--|
1|-----------------|
2|---5p4p0---------|
3|---------1-------|
4|--------------2--|
5|--------------2--|
6|------------0----|
Solo se que a tu lado me quiero despertar
MI
LA
FA#m

1|-------------------|
2|-------------------|
3|-------------------|
4|-------------------|
5|-------------------|
6|---2-4-5---4---2---|
Amanecer una vez mas
SOL#m
DO#m
FA#m
SI
MI
LA
1|-----------------------------------------------------|
2|-----------------------------------------------------|
3|-6h8h9-8-6-------------------6/8/6-------------------|
4|----------7---6/7p6-4-------------9-6---4/6p4--------|
5|----------------------7-6--------------------7-6-4---|
6|-----------------------------------------------------|
FA#m
RE
DO#m
1|----------------------------------------------------------|
2|----------------------------------------------------------|
3|---------------11-9/11---8h9-7---6-5---6-5----------------|
4|---9-11-9-7-------------------------7-----7-6-------------|
5|-12--------9----------------------------------9-7-6-------|
6|----------------------------------------------------9-8-9-|
sabes? Cuando era muy joven nunca pense que el amor
DO#m
SOL#m SI
FA#
me daria sin preguntar tantas respuestas
LA
SI
DO#m
y hoy que me fio de pocos
DO#m
SOL#m
y hoy que reina la traicion
SI
FA#
se que alguien puede curar mi corazon ohh ohh
LA
SI
DO# SI DO#
1|-------------------|
2|-------------------|
3|-------------------|
4|----------/4---4/6-|
5|---4---6-----------|
6|-------------------|
Te agradesco que sanes mi alma
FA#m
SI
1|------------|
2|------------|
3|------------|
4|------------|
5|----------2-|
6|---2---4-5--|
1|-----------------|
2|---5p4p0---------|
3|---------1-------|

4|--------------2--|
5|--------------2--|
6|------------0----|
Sobrevivo encontrando en tus ojos
MI
LA
1|-------------------|
2|-------------------|
3|-------------------|
4|-------------------|
5|-------------------|
6|---2-4-5---4---2---|
El resplandor de un verde talisman
FA#m
SOL#m
DO#m SI MI
1|-----------------------|
2|-----------------------|
3|-----------------------|
4|-----------------------|
5|---4---6---7---4-------|
6|-------------------2---|
Si al final esta vida es un sueo
FA#m
SI
1|------------|
2|------------|
3|------------|
4|------------|
5|----------2-|
6|---2---4-5--|
1|-----------------|
2|---5p4p0---------|
3|---------1-------|
4|--------------2--|
5|--------------2--|
6|------------0----|
Solo se que a tu lado me quiero despertar
MI
LA
FA#m
1|-------------------|
2|-------------------|
3|-------------------|
4|-------------------|
5|-------------------|
6|---2-4-5---4---2---|
Amanecer una vez mas
SOL#m
DO#m
SI
DO#m
SI
1|----------------------------------------------------------|
2|----------------------------------------------------------|
3|-11/13v-13p0-13p0-13p0-13p0-13v---9-----------------------|
4|-----------------------------------11---9-9-11-11b(12)-11-|

5|----------------------------------------------------------|
6|----------------------------------------------------------|
DO#m
SI
FA#m
SI
12-9---------------9--------------------------------------------------------12-9-------9-12b---12b-109h10p9---------------------------------------------11-9-11----------------------11-9h11p9v---13b-11h13p11-11b---99v------------------------------------------------------------------------------------------------------------------------------------------------------------------------------------------------------------------------DO#m
SI
1|--------14-16b-16b-14---14-16-----------|
2|--/14-17-------------17------17-14-14---|
3|----------------------------------------|
4|----------------------------------------|
5|----------------------------------------|
6|----------------------------------------|
DO#m
SI
1|-12-9--------9-----9-----9----------------------------------|
2|-----12-9-12b---12b---12b---12b---10-9h10p9-----------------|
3|--------------------------------------------11-9h11p9-------|
4|-----------------------------------------------------11-----|
5|------------------------------------------------------------|
6|------------------------------------------------------------|
DO#m
SI
1|--------------------------------------------------------|
2|-0-5p2-0-5p2-0-5p2-0-5p2-0-5p2-0---4h5p4----------------|
3|-----------------------------------------6-4------------|
4|---------------------------------------------7-6-4------|
5|---------------------------------------------------7-4v-|
6|--------------------------------------------------------|
FA#m
SOL#m
1|-----------------------------------------------|
2|---------------------4h5p4---------------------|
3|-13b-11h13p11-11v---------6-4------------------|
4|------------------------------7-6-4------------|
5|------------------------------------7-4--------|
6|----------------------------------------7-4v---|
DO#m
1|---------------------------------|
2|---------------------------------|
3|---------------------------------|
4|-10-11-13------------------------|
5|----------9-11-12-------6-7------|
6|--------------------8-9-----2----|

Te agradesco que sanes mi alma


FA#m
SI
1|------------|
2|------------|
3|------------|
4|------------|
5|----------2-|
6|---2---4-5--|
1|-----------------|
2|---5p4p0---------|
3|---------1-------|
4|--------------2--|
5|--------------2--|
6|------------0----|
Sobrevivo encontrando en tus ojos
MI
LA
1|-------------------|
2|-------------------|
3|-------------------|
4|-------------------|
5|-------------------|
6|---2-4-5---4---2---|
El resplandor de un verde talisman
FA#m
SOL#m
DO#m SI MI
1|-----------------------|
2|-----------------------|
3|-----------------------|
4|-----------------------|
5|---4---6---7---4-------|
6|-------------------2---|
Si al final esta vida es un sueo
FA#m
SI
1|------------|
2|------------|
3|------------|
4|------------|
5|----------2-|
6|---2---4-5--|
1|-----------------|
2|---5p4p0---------|
3|---------1-------|
4|--------------2--|
5|--------------2--|
6|------------0----|
Solo se que a tu lado me quiero despertar
MI
LA
FA#m
1|-------------------|
2|-------------------|
3|-------------------|

4|-------------------|
5|-------------------|
6|---2-4-5---4---2---|
Amanecer una vez mas
SOL#m
DO#m
1|---------------|
2|---------------|
3|---------------|
4|--11-9-7-6-4---|
5|---x-x-x-x-x---|
6|---9-7-5-4-2---|
Si al final esta vida es un sueo
FA#m
SI
1|------------|
2|------------|
3|------------|
4|------------|
5|----------2-|
6|---2---4-5--|
1|-----------------|
2|---5p4p0---------|
3|---------1-------|
4|--------------2--|
5|--------------2--|
6|------------0----|
Solo se que a tu lado me quiero despertar
MI
LA
FA#m
1|-------------------|
2|-------------------|
3|-------------------|
4|-------------------|
5|-------------------|
6|---2-4-5---4---2---|
Amanecer una vez mas
SOL#m
DO#m
1|----------------------------------------|
2|----------------------------------------|
3|-11/13-11--------------9/11-9-8---------|
4|---------14-11-----------------9-7-6v---|
5|--------------14-12v--------------------|
6|----------------------------------------|
1|-----------------------------------------|
2|-----------------------------------------|
3|-----------------------------------------|
4|-13/14-13-11------------11-10---11-------|
5|------------12-11-9v---------11----------|
6|-----------------------------------------| (X2)

1|----------14-17---16-14-------|
2|-/14-14-17--------------17-16-|
3|------------------------------|
4|------------------------------|
5|------------------------------|
6|------------------------------|
1|------------14--------------------------------|
2|-------16-17-----17-16-17p16------------------|
3|-/14-14---------------------18-17-------------|
4|----------------------------------------------|
5|-----------------------------------16v--------|
6|----------------------------------------------|
1|-------16-14-13h14p13-13----------------|
2|------X--------------------17-19-17-17v-|
3|-----X----------------------------------|
4|----X-----------------------------------|
5|----------------------------------------|
6|----------------------------------------|

La tab que envie anteriormente tenia varios


Ahora esta mas exacta y suena mejor. Espero
Lo envio recien porque se me habia olvidado
Disfruten y si hay alguna duda o comentario
msn: diego_mg1589@hotmail.com

errores.
que esta vez si les guste
=)
me las hacen llegar a mi

Diego M.G.
Comas - Lima - Per
=========================== lacuerda.net ============================
Este fichero es trabajo propio de su transcriptor y representa su
interpretacin personal de la cancin. El material contenido en
esta pgina es para exclusivo uso privado, por lo que se prohibe su
reproduccin o retransmisin, as como su uso para fines comerciales.
=========================== lacuerda.net ==