Sei sulla pagina 1di 6

THE FIRE CADENZA

As recorded by Lawson Rollins


Music by Lawson Rollins
Arranged by John Spitznagel
Gtr I (E A D G B E)
Gtr II (E A D G B E)
Gtr III (E A D G B E)
Q=80
4/4
Gtr I
~

~~
|-3-|
|3-|
|--3--|
Q T T T T S S H
E E E E S S E S E S S S S S
|---------------------:---------5-8-12-12-12-12-12-12-13-12-:
|---------------------:-------------------------------------:
|---------------------:-------------------------------------:
|----2-3-2-0-2-3-2----:-----2S7-----------------------------:
|---------------------:-0-3---------------------------------:
|---------------------:-------------------------------------:
Q=96
|3-| |3-| |--3--|
|--3--| |--3--| |-----5-----|
E S S E S S S S S S S S S S S T T T T T T T T T
|-16-13-12-13-13-12----12-13-15-13-12--------------------------------------:
|-------------------15----------------15-13-12-13-12-10----10-12-13-12-10--:
|-------------------------------------------------------12-----------------:
|--------------------------------------------------------------------------:
|--------------------------------------------------------------------------:
|--------------------------------------------------------------------------:
2/4
|-3--| |-3--| |-3--| |-3--| |-3--|
S S S S S S S S S S S S S S S S S a S S E
H
|---------------------------------------------------------:---------|
|---------------------------------------------------------:---------|
|-12-10-9-13-10-9-12-10-9-13-10-9-------------------------:---------|
|---------------------------------12-10-9-12-10-9-10-9----:---------|
|------------------------------------------------------11-:-<12>----|
|---------------------------------------------------------:---------|
Q=132
4/4
|3-| |-3--| |-3--| |-3--|
|-3--| |-3--|
E S S S S S S S S S S S S S S S S S S S S
|------------8-12-8---------8-12-8-13-8-12-8---------8-|
|---------10--------10---10------------------10---10---|
|-------9--------------9------------------------9------|
|----10------------------------------------------------|
|-12---------------------------------------------------|
|------------------------------------------------------|
|-3--| |3-| |-3--| |-3-| |-3-| |-3-|
S S S S S S S E S S S S S S S S S S S S S

|-12-8-13-8-12-8---------7-10-7-------5-8-5-------|
|----------------10---10--------8---8-------6-----|
|-------------------9-------------7-----------5---|
|-----------------------------------------------6-|
|-------------------------------------------------|
|-------------------------------------------------|
2/4
|-3-| |-3-| |-3-|
S S S S S S S S S T T T T
|-5-7-5-------4-7-4---------|
|-------6---6-------5-------|
|---------5-----------4-----|
|-----------------------6---|
|-------------------------7-|
|---------------------------|
4/4
|3-| |-3--| |-3--| |-3--|
|-3--| |3-|
E S S S S S S S S S S S S S S S S S E S
|------------8-12-8---------8-12-8-13-8-12-8----------|
|---------10--------10---10------------------10---10--|
|-------9--------------9------------------------9-----|
|----10-----------------------------------------------|
|-12--------------------------------------------------|
|-----------------------------------------------------|
|-3--| |-3-| |-3-| |-3-| |-3-| |-3-| |-3-|
S S S S S S S S S S S S S S S S S S S S S T T T T
|-7-10-7-------5-8-5-------5-7-5-------4-7-4---------|
|--------8---8-------6---6-------6---6-------5-------|
|----------7-----------5-----------5-----------4-----|
|------------------------------------------------6---|
|--------------------------------------------------7-|
|----------------------------------------------------|
|---5---| |-3-| |-3-| |----5----| |-3--| |--3--|
S S S S S S S S S S S S S S S S S S S S S S
|---------5-8-5--------------------8-12-8------------|
|-------6-------6---------------10--------10---------|
|-----5-----------5-----------9--------------9-------|
|---7---------------7------10------------------10----|
|-8-------------------8-12------------------------12-|
|----------------------------------------------------|
|---5---| |-3-| |-3-| |---5---| |-3-| |-3-|
S S S S S S S S S S S S S S S S S S S S S S
|---------5-8-5-----------------4-7-4-----------|
|-------6-------6-------------5-------5---------|
|-----5-----------5---------4-----------4-------|
|---7---------------7-----6---------------6-----|
|-8-------------------8-7-------------------7---|
|-----------------------------------------------|

|---5---| |-3-| |-3-| |----5----| |----5----|


S S S S S S S S S S S S S S S S S S S S S
|---------5-8-5--------------------8-12-8---------|
|-------6-------6---------------10--------10---10-|
|-----5-----------5-----------9--------------9----|
|---7---------------7------10---------------------|
|-8-------------------8-12------------------------|
|-------------------------------------------------|
3/4
|--3--|
|--3--|
T T T T S S S T T T T S S S Q
|-8-13-10----------10---16-13----------13-17--|
|---------12----12------------12----15--------|
|------------13------------------16-----------|
|---------------------------------------------|
|---------------------------------------------|
|---------------------------------------------|
H.=H
4/4
~
|---5---|
E E E E S S S S S S S S S S S S S S S S S S S S S Q
|-4-5-4-5-----------------|------------------------------|
|---------5-6-5-6---------|------------------------------|
|-----------------4-5-4-5-|-1-2-1-2----------------------|
|-------------------------|---------2-3-2-3--------------|
|-------------------------|-----------------2-3-2-3------|
|-------------------------|-------------------------4-5--|
|----3----| |3| |-3--|
S S S S S S E S S S S Q.
E
|---------5-8-12-8------------------|
|------------------10---------------|
|---------------------9-------------|
|-----------------------10----------|
|-------7------------------12-------|
|-0-5-8--------------------------11-|
Q=104
|-----6-----| |-----6-----| |-----6-----| |-----6-----|
S S S S S S S S S S S S S S S S S S S S S S S S
|---------------------------------------------------------|
|---------------------------------------------------------|
|---------------------------------------------------------|
|--------------------------------------------------7-8-10-|
|--------7-------------7-------------7----------10--------|
|-7-8-10---10-8-7-8-10---10-8-7-8-10---10-8-7-8-----------|
|-----6------| |------6------| |------6------| |------6-------|
S S S S S S S S S S S S S S S S S S S S S S S S
|-----------------------------------------------------------------|
|--------------------------------------------------------10-12-13-|
|------------------------9---------------9-10-12-9-10-12----------|

|--------9-10-12-9-10-12---12-10-9-10-12--------------------------|
|-7-8-10----------------------------------------------------------|
|-----------------------------------------------------------------|
|------6-------| |------6-------| |--------6--------| |------6-------|
S S S S S S S S S S S S S S S T T S S S S S S S S
|----------10----------------10----------------10-10-13-12-10-10-15-13-12-12-|
|-10-12-13----13-12-10-12-13----13-12-10-12-13-------------------------------|
|----------------------------------------------------------------------------|
|----------------------------------------------------------------------------|
|----------------------------------------------------------------------------|
|----------------------------------------------------------------------------|
[ Tab from: http://www.guitaretab.com/l/lawson-rollins/187240.html ]
|------6-------| |------6-------| |------6-------| |------6-------|
S S S S S S S S S S S S S S S S S S S S S S S S
|-17-13----------13-15-13-15-13----------13-17-13-15-13-17-13-17-13-------|
|-------15----15----------------15----15----------------------------15----|
|----------14----------------------14----------------------------------14-|
|-------------------------------------------------------------------------|
|-------------------------------------------------------------------------|
|-------------------------------------------------------------------------|
|--------7--------| |------6-------| |------6-------| |-----6-----|
S S S S S S S S S S S S S S S S S S S S S S S S S
|----13-15-13----------13-15-12----------12-13-10----------10-10-7--------|
|-15----------15----15----------13----13----------12----12---------9----9-|
|----------------14----------------12----------------13--------------10---|
|-------------------------------------------------------------------------|
|-------------------------------------------------------------------------|
|-------------------------------------------------------------------------|
Q=152
|----6----| |-3-|
|---5----|
S S S S S S E E E S S S S S S S S S Q Q S S S S S S S S
|-7-7-4-------4-5-7-8-7-7-5-7-7-5-5-12-:-0-----8-5-0-0-8-5-0-0--|
|-------6---6--------------------------:------------------------|
|---------7----------------------------:------------------------|
|--------------------------------------:------------------------|
|--------------------------------------:------------------------|
|--------------------------------------:------------------------|
|---5---|
S S S S S S S S S S S S S S S S
S S S S S S S S E E E E E
|-7-4-0-0-8-5-0-0-10-7-0-0-12-8-0-0-:-10-7-0-0-8-5-0-0-7-4-------|
|-----------------------------------:----------------------5---5-|
|-----------------------------------:------------------------4---|
|-----------------------------------:----------------------------|
|-----------------------------------:----------------------------|
|-----------------------------------:----------------------------|
|---5---|
T T T T T T T T T T T T T T T T T T T T T T T T T T T T T T T T T
|-4-5-4-5-4-------4-7-4-5-4-7-4-7-4-------4-5-4-------4-7-4---------|
|-----------5---5-------------------5---5-------5---5-------5-------|

|-------------4-----------------------4-----------4-----------4-----|
|---------------------------------------------------------------6---|
|-----------------------------------------------------------------7-|
|-------------------------------------------------------------------|
3/8
T T T T S S E
|----------7-10-17-:
|--------8---------:
|------7-----------:
|----9-------------:
|-10---------------:
|------------------:
4/4
|-----5-----|
S S S S S S S S S S S S S S S S S
W
|-17-17-16-16-13-13-12-12-13-13----------------------:-------||
|-------------------------------12-13----------------:-------||
|-------------------------------------13-14----------:-------||
|-------------------------------------------14-15----:-------||
|-------------------------------------------------11-:-12----||
|----------------------------------------------------:-------||
Q=88
3/4
4/4
E S S E E E E
E S S Q +E S S e e
E Q.
E S S E E
|-----8-7--8-10-12-13-|-12-12-10--8---(8)--8-7--8-7-|-10-12------------------|
|---------------------|-----------------------------|------------------------|
|---------------------|-----------------------------|---------------5-4--5-7-|
|---------------------|-----------------------------|------------------------|
|---------------------|-----------------------------|------------------------|
|---------------------|-----------------------------|------------------------|
|
| Gtr II
|
~~~
| E S S E E E E
E S S Q +E S S e e
E Q.
E S S E E
|---------------------|-----------------------------|------------------------|
|----10-8-10-12-13-15-|-13-13-12-10--(10)-10-8-10-8-|--5--3---------5-3--5-6-|
|---------------------|-----------------------------|------------------------|
|---------------------|-----------------------------|------------------------|
|---------------------|-----------------------------|------------------------|
|---------------------|-----------------------------|------------------------|
|
| Gtr III
| Q
Q
Q
Q
Q
Q
Q
Q
Q Q
Q
|-12------13----10----|-12--------------------------|------------------------|
|-13------15----12----|-13-------13---15------------|-13-----10--12-----15---|
|-14------14----13----|-14-------12---14-------13---|-12-----10--10-----13---|
|---------------------|----------14---15-------12---|-14-----10--12-----15---|
|---------------------|----------12---14-------14---|-12-----12--11-----14---|
|---------------------|------------------------12---|--------10--------------|
2/4

4/4
T
|-3-|

|----6-----| |------7------|

E S S S E.
S +S S S S S S S S S S S S S E Q E
|-------------------|-----------------------------8--7-5---5(17)-|
|-------------------|----------------------5-6-8-----------------|
|--5-4-5-4----------|---------4-5-7-4--5-7-----------------------|
|-----------7-----3-|-(3)-5-7------------------------------------|
|-------------------|--------------------------------------------|
|-------------------|--------------------------------------------|
|
|
|------7------|
| E E
Q
Q
Q.
S E Q.
|-------------------|----------------------------12-10-8---------|
|--5-3--------------|--------------------------------------------|
|-----------5-------|--------------------------------------------|
|-------------------|--------------------------------------------|
|-------------------|--------------------------------------------|
|-------------------|--------------------------------------------|
|
| Q
E E
W
|-------------------|--------------------------------------------|
|-13-------10--12---|--9-----------------------------------------|
|-12-------10--10---|--7-----------------------------------------|
|-14-------10--12---|--9-----------------------------------------|
|-12-------12--11---|--8-----------------------------------------|
|----------10-------|--------------------------------------------|
T
T
T
T
~~~~~
E
E
E
E
H
|--5(17)----------------------------*|
|--------5(17)-5(17)----------------*|
|--------------------5(17)-4(16)----*|
|-----------------------------------*|
|-----------------------------------*|
|-----------------------------------*|
|
| +W
|-(8)-------------------------------*|
|-----------------------------------*|
|-----------------------------------*|
|-----------------------------------*|
|-----------------------------------*|
|-----------------------------------*|
|
| W
|--5--------------------------------*|
|--5--------------------------------*|
|--5--------------------------------*|
|--9--------------------------------*|
|--7--------------------------------*|
|--5--------------------------------*|