Sei sulla pagina 1di 3

Hoje Livre Sou

(intro)
G Em G C Em D C
E|-------5-6-5------------8-6-5p6p5-------------/13---------------------------|
B|---6-8-------8-6-8--6-6-----------6------65--------------------------------|
G|-5-----------------------------------5-5------------------------------------|
D|----------------------------------------------------------------------------|
A|----------------------------------------------------------------------------|
E|----------------------------------------------------------------------------|
G D Em C G D
Presena forte em mim, eu posso dizer: habitas aqui
G D Em G C G D
Porque escravo eu fui e hoje eu sou mais livre aos teus ps
Bm C D G
Sentido na vida a minhalma encontrou
Bm C D G
Tua mo poderosa veio e me levantou
Bm C Bm C
Agora eu posso declarar
Em D G
Hoje li vre sou
G Em C G
Tenho sede da tua graa, cada dia mais
Em C D
Sou mais forte e vou mais longe quando aqui ests
Em Am Bm C
Com palavras de amor te adoro, Senhor
Em D G
Hoje li vre sou
G Em C G
Meu tesouro, minha herana, meu Supremo Bem
Em C D
Nem tribulaes nem dor podem nos separar
Em Am Bm C
E jamais iro romper o que o amor selou
Em D G
Hoje li vre sou
(solo)
G Em C G Em C G Em C G
E|--------------------------------------------13----13-13/17-17/18-17-15-13/20-20-| B|-/10-10h11-10
B|-------------15-17-17/18-17-15-17p15--------------------------------------------|
G|-15-17-17/18-------------------------17-----------------------------------------|
D|--------------------------------------------------------------------------------|
D|--------------------------------------------------------------------------------|
A|--------------------------------------------------------------------------------|
Bm C D G
Sentido na vida a minhalma encontrou
Bm C D G
Tua mo poderosa veio e me levantou
Bm C Bm C
Agora eu posso declarar
Em D G
Hoje li vre sou
G Em C G
Tenho sede da tua graa, cada dia mais
Em C D
Sou mais forte e vou mais longe quando aqui ests
Em Am Bm C
Com palavras de amor te adoro, Senhor
Em D A
Hoje li vre sou
A F#m D A
Meu tesouro, minha herana, meu Supremo Bem
F#m D E
Nem tribulaes nem dor podem nos separar
F#m Bm A D
E jamais iro romper o que o amor selou
F#m E A
Hoje li vre sou
A F#m D A
Tenho sede da tua graa, cada dia mais
F#m D E
Sou mais forte e vou mais longe quando aqui ests
A Am Bm C D E
Em F#m G
F#m Bm A D
Com palavras de amor te adoro, Senhor
F#m E A
Hoje li vre sou
A F#m D A
Meu tesouro, minha herana, meu Supremo Bem
F#m D E
Nem tribulaes nem dor podem nos separar
F#m Bm A D
E jamais iro romper o que o amor selou
F#m E A D
Hoje li vre sou
F#m A
Hoje li vre sou