Sei sulla pagina 1di 4

intro

E|---------------------------------------------------------------------|
B|---------------------------------------------------------------------|
G|-------------------1010101010101010----------------------------------| x2
D|-1010101010101010--1010101010101010--5-5-5-5-5-5-5-5-5----3-3-3------|
A|-1010101010101010--8-8-8-8-8-8-8-8---5-5-5-5-5-5-5-5-5----3-3-3------|
E|-8-8-8-8-8-8-8-8---------------------3-3-3-3-3-3-3-3-3----1-1-1------|

verses

E|---------------------------------------------------------------------|
B|---------------------------------------------------------------------|
G|---------------------------------------------------------------------| x4
D|-1010101010101010--5-5-5-5-5-5-5-5--3-3-3-3-3-3-3-3--5-5-5-5-5-5-5-5-|
A|-1010101010101010--5-5-5-5-5-5-5-5--3-3-3-3-3-3-3-3--5-5-5-5-5-5-5-5-|
E|-8-8-8-8-8-8-8-8---3-3-3-3-3-3-3-3--1-1-1-1-1-1-1-1--3-3-3-3-3-3-3-3-|

E|---------------------------------------------------------------------|
B|---------------------------------------------------------------------|
G|---------------------------------------------------------------------|
D|-10~~~~~~~~~~~~~~~~~~~~~~~~~~~~~~~~~~~~~~~~~~~~~~~~~~~~~~~~~~~~~~~~~-|
A|-10~~~~~~~~~~~~~~~~~~~~~~~~~~~~~~~~~~~~~~~~~~~~~~~~~~~~~~~~~~~~~~~~~-|
E|-8-~~~~~~~~~~~~~~~~~~~~~~~~~~~~~~~~~~~~~~~~~~~~~~~~~~~~~~~~~~~~~~~~~-|

Chorus

E|---------------------------------------------------------------------|
B|---------------------------------------------------------------------|
G|---------------------------------------------------------------------| x2
D|-10101010101010101010101010101010--5-5-5-5-5-5-5-5--3-3-3-3-3-3-3-3--|
A|-10101010101010101010101010101010--5-5-5-5-5-5-5-5--3-3-3-3-3-3-3-3--|
E|-8-8-8-8-8-8-8-8-8-8-8-8-8-8-8-8---3-3-3-3-3-3-3-3--1-1-1-1-1-1-1-1--|

solo

E|---------------------------------------------------------------------|
B|---------------------------------------------------------------------|
G|-5-5-5-5-5-5-5-5--10101010-9-9-9-9--7-7-7-7-7-7-7-7-7---5-5-5--------| x2
D|---------------------------------------------------------------------|
A|-3-3-3-3-3-3-3-3---8-8-8-8-7-7-7-7--5-5-5-5-5-5-5-5-5---3-3-3--------|
E|---------------------------------------------------------------------|

verse

E|---------------------------------------------------------------------|
B|---------------------------------------------------------------------|
G|---------------------------------------------------------------------| x2
D|-1010101010101010--5-5-5-5-5-5-5-5--3-3-3-3-3-3-3-3--5-5-5-5-5-5-5-5-|
A|-1010101010101010--5-5-5-5-5-5-5-5--3-3-3-3-3-3-3-3--5-5-5-5-5-5-5-5-|
E|-8-8-8-8-8-8-8-8---3-3-3-3-3-3-3-3--1-1-1-1-1-1-1-1--3-3-3-3-3-3-3-3-|

E|---------------------------------------------------------------------|
B|---------------------------------------------------------------------|
G|---------------------------------------------------------------------|
D|-10~~~~~~~~~~~~~~~~~~~~~~~~~~~~~~~~~~~~~~~~~~~~~~~~~~~~~~~~~~~~~~~~~-|
A|-10~~~~~~~~~~~~~~~~~~~~~~~~~~~~~~~~~~~~~~~~~~~~~~~~~~~~~~~~~~~~~~~~~-|
E|-8-~~~~~~~~~~~~~~~~~~~~~~~~~~~~~~~~~~~~~~~~~~~~~~~~~~~~~~~~~~~~~~~~~-|

chourus

E|---------------------------------------------------------------------|
B|---------------------------------------------------------------------|
G|---------------------------------------------------------------------| x2
D|-10101010101010101010101010101010--5-5-5-5-5-5-5-5--3-3-3-3-3-3-3-3--|
A|-10101010101010101010101010101010--5-5-5-5-5-5-5-5--3-3-3-3-3-3-3-3--|
E|-8-8-8-8-8-8-8-8-8-8-8-8-8-8-8-8---3-3-3-3-3-3-3-3--1-1-1-1-1-1-1-1--|

verse

E|---------------------------------------------------------------------|
B|---------------------------------------------------------------------|
G|---------------------------------------------------------------------|
D|-10~~~~~~~~~~~~~~~~~~~~~~~~~~~~~~~~~~~~~~~~~~~~~~~~~~~~~~~~~~~~~~~~~-|
A|-10~~~~~~~~~~~~~~~~~~~~~~~~~~~~~~~~~~~~~~~~~~~~~~~~~~~~~~~~~~~~~~~~~-|
E|-8-~~~~~~~~~~~~~~~~~~~~~~~~~~~~~~~~~~~~~~~~~~~~~~~~~~~~~~~~~~~~~~~~~-|

outro

E|---------------------------------------------------------------------|
B|---------------------------------------------------------------------|
G|-5---5---5---5---5---5---5---5---5---5---5---5---4---4---4---4-------| x3
D|---5---5---5---5---5---5---5---5---5---5---5---5---5---5---5---------|
A|---------------------------------------------------------------------|
E|---------------------------------------------------------------------|

E|---------------------------------------------------------------------|
B|---------------------------------------------------------------------|
G|---------------------------------------------------------------------| x4
D|-10101010101010101010101010101010--5-5-5-5-5-5-5-5--3-3-3-3-3-3-3-3~~|
A|-10101010101010101010101010101010--5-5-5-5-5-5-5-5--3-3-3-3-3-3-3-3~~|
E|-8-8-8-8-8-8-8-8-8-8-8-8-8-8-8-8---3-3-3-3-3-3-3-3--1-1-1-1-1-1-1-1~~|
let ring on last riff
HOPE YOU ROCKERS LIKE IT

Tuning: standard

Intro:
e|---------------------------------------------------------------------------|
B|------------------------4-----4-----------------5--------------7-----------|
G|------9-------9-----------5-----5--------6p4-------4h6p4---------8---------|
D|----9---9-------9-----------6-----6----6-----6---------------------9-------|
A|--7-------7-7----------6-------------4-------------------4/7\6-------6-----|
E|-------------------7\4-----------------------------------------------------|

Verse: use up stokes


e|-----------------4-----7---------------------------------------------------|
B|---9------4------5-----7---------------------------------------------------|
G|---9------5------6-----8---------------------------------------------------|
D|---9-x4---6-x4---6-x4--9-x4------------------------------------------------|
A|---7------6------4-----9---------------------------------------------------|
E|----------4------------7---------------------------------------------------|
Ch:
e|---5-------7-------------------------|-5-------
7----------------------------|
B|-----5-------7-----9----7--------5---|---5-------7-----9---7--
5-------------|
G|-------6-------8----9--8-------6---6-|-----6-------8----9-8-----
6-----------|
D|---------7-------9-----------7-------|-------7-------9------------
7---------|
A|---------------------------7---------|------------------------------
7-------|
E|-------------------------------------|-------------------------------------
-|

e|---5--------7------------------------|-5------7-------|
B|-----5--------7--------9--7-------5--|---5------7-----|
G|-------6--------8----9—--8------6--6-|-----6------8---|
D|---------7--------9-----------7-----5|------7-------9-|
A|----------------------------7--------|----------------|
E|-------------------------------------|----------------|
Solo:
e|-------------------------------------------|-------------------------------|
B|-------------------------------------------|-------------------------------|
G|---------------9—11^13-11-9--8-8-8p6—8^9^8-|6-6p4---4----------------------|
D|----------9h11-----------------------------|------6---6p4—2h4p2---2--------|
A|---7—9h11----------------------------------|--------------------4---4-2----|
E|-------------------------------------------|-------------------------------|

e|-----------------------------|-7h9-
9p7--------------------------------------|
B|--------------------------5--|---------
9p7----------------------------------|
G|-------------------4h5h6-----|-------------9p6h9—
9p6------------------------|
D|-------------4h5h6-----------|-----------------------9------9----------10-
10|
A|-------2h3h4-----------------|-------------------------9/11---11-9--11--
11--|
E|-
2h3h4-----------------------|----------------------------------------------|

e|--------9-------------9----------------------------------------------------|
B|----------9-------------9--------------------------------------------------|
G|--11^13-----9—-11^13------9—-11^13^11---11^13^11—9-11-9--------------------|
D|---------------------------------------------------------------------------|
A|---------------------------------------------------------------------------|
E|---------------------------------------------------------------------------|

| ^ bend to the next note


| / slide up
| \ slide down
| h hammer-on
| p pull-off
| ~ vibrato
| + harmonic
| x Mute note