Sei sulla pagina 1di 2

========

From: "DavidOne" <traumfabrik@tin.it>


Date: Wed, 19 Jun 2002 21:16:44 GMT
-------20 bottiglie di vino - bandabard
mojito football club
Intro:
e|---5---3-------------5-6-8-6---5---5h6h5----3-----------------------------|
B|-----------6----3----------------------------------3-------6--------------|
G|--------------------------------------------------------------------------|
D|--------------------------------------------------------------8-------9---|
A|--------------------------------------------------------------------------|
E|--------------------------------------------------------------------------|
e|--12--11--10--9--8--9--10--11--12B|---------------------------------G|---------------------------------D|---------------------------------A|---------------------------------E|----------------------------------

-12--11--10--9--8--9--10--11-7---7---7-|
---------------------------------------|
---------------------------------------|
---------------------------------------|
---------------------------------------|
---------------------------------------|

Dm, Gm
Un articolo molto speciale
La calma del surfista
Con lei aspetti l'onda
E parti alla conquista
Di una strada sempre diversa
Di una vita che sembra persa
Che si riprende in colpo di reni
O con una caduta senza problemi
Chorus:
Em, C
Servono venti bottiglie di vino
Chi dice di pi ,chi dice di meno
Chi vuole la calma serena e orgogliosa
B
Di chi crede,di chi osa
Solo 20 bottiglie di vino
Chi dice di pi ,chi dice di meno
Chi vuole la calma serena e orgogliosa
Di chi crede,di chi osa
Alzate le mani, alzate le mani!
Un articolo molto richiesto
Lo sguardo del rapace
Per non perdere di vista
Ogni minimo segno di pace
La vista serve alla concentrazione
Di chi non si perde perch fa attenzione

Serve alla memoria per non confondere la storia


Servono venti bottiglie di vino....
Alzate le mani, alzate le mani!
Per 20 bottiglie di vino
Un po' d'erba del vicino
L'emozione dentro al canto
Una risata dopo il pianto
Un finale da carnevale
Il diverso diventa uguale
Giocatevi il destino
Con 20 bottiglie di vino
Comprate ,gente,comprate!
Alzate le mani ,alzate!
Al mercato clandestino
Delle 20 bottiglie di vino