Sei sulla pagina 1di 3

========

From: "Tablature" <luckyman3@libero.it>


Date: Sun, 07 Jul 2002 21:35:32 GMT
-------Ciao da Giuliano.
http://tablature.too.it
http://tablature.host.sk
************************************************
Non mi rompete - Banco del Mutuo Soccorso
La tab (in formato .jpg) di questo splendido brano l'ho pescato
sul sito ufficiale della band.
Sul mio sito alla pagina "GuitarPro"
trovi anche il relativo file GTP.
Trascritto da Giuliano - http://tablature.too.it
1 chitarra
Intro
E||--------------|----------3--------------|---------------|
B||---0----0--1--|----3--0-----0-----3-----|-----------0---|
G||*--0----0--2--|----4-----------0-----0--|--------0-----*|
D||*-------------|-------------------------|-----0--------*|
A||--------------|-------------------------|---------------|
E||--------------|----------3--------3-----|--3------------|
Non

mi

rompete.....
Sol
E||---------------------||------------3--------2-----|
B||--0----0----1--------||---------------------------|
G||--0----0----2--------||*--------0-----0--------0--|
D||---------------------||*-----0-----------0--------|
A||---------------------||---------------------------|
E||---------------------||---3--------3--------3-----|
ve

ne prego....

--------------0-----------|-----------3--------2-----|
-----3-----------3--------|--------------------------|
--------0-----------0-----|--------0-----0--------0--|
--0--------0-----------0--|-----0-----------0--------|
--------------------------|--------------------------|
-----3--------------------|--3--------3--------3-----|
ma lasciate che
io
Mim7
--------------0-----------|-----------3--------2-----|
-----3-----------3--------|--------------0-----------|
--------0-----------0-----|--------0--------0-----0--|
--0--------0-----------0--|--------------------------|
--------------------------|-----2-----2--------2-----|
-----3--------------------|--0-----------------------|
dorma
questo
sonno
Do
Sol
--0--------2--------0-----|-----------3--------2-----|
--------------------------|--3-----------------------|

-----0--------0--------0--|-----0--------0--------0--|
--------0--------0--------|--------0--------0--------|
--3--------3--------3-----|--------------------------|
--------------------------|--3--------3--------3-----|
Sia tranquillo......
--------------0----------||
-----3-----------3-------||
--------0---------------*||
--0--------0------------*||
-------------------------||
-----3-------------------||

||------10----7----3-----|---------------------||
||------12----8----3--3--|------0----0----1----||
||--------------------4--|------0----0----2----||
||-----------------------|---------------------||
||-----------------------|---------------------||
||-----------------------|---------------------||

2 chitarra
Intro
E||--------------|-----------7----3----|------------|
B||--------------|-----------8----3----|--3---------|
G||*-------------|---------------------|--4--------*|
D||*-------------|---------------------|-----------*|
A||---2----2--3--|----5----------------|------------|
E||--------------|---------------------|------------|
Sol
E||---------------------||---------------------------|
B||--0----0----1--------||------------0--------1-----|
G||--0----0----2--------||*--------0-----0--------0--|
D||---------------------||*-----0-----------0--------|
A||---------------------||---------------------------|
E||---------------------||---3--------3--------3-----|

--------------0-----------|--------------------------|
-----3-----------3--------|-----------0--------1-----|
--------0-----------0-----|--------0-----0--------0--|
--0--------0-----------0--|-----0-----------0--------|
--------------------------|--------------------------|
-----3--------------------|--3--------3--------3-----|
Mim7
--------------0-----------|--------------------------|
-----3-----------3--------|-----------0--------1-----|
--------0-----------0-----|--------0-----0--------0--|
--0--------0-----------0--|-----------------0--------|
--------------------------|-----2--------------------|

-----3--------------------|--0-----------------------|
Do
Sol
--------------------------|--------------------------|
-----------3--------1-----|-----------0--------1-----|
--------0-----0--------0--|--------0-----0--------0--|
-----0-----------0--------|-----0-----------0--------|
--3-----------------------|--------------------------|
--------------------------|--3--------3--------3-----|

--------------0----------||------10----7----3-----|---------------------||
-----3-----------3-------||------12----8----3--3--|------0----0----1----||
--------0---------------*||--------------------4--|------0----0----2----||
--0--------0------------*||-----------------------|---------------------||
-------------------------||-----------------------|---------------------||
-----3-------------------||-----------------------|---------------------||

Ritornello :
Al posto del Fa13(7+) io di solito uso
Sol
Fa13(7+) un piu' usuale ma "corposo" Fa7+
||---3-----------0---------------------0-------------------||---3-----------1---------------------1-------------------||---0-----------0---------------------2-------------------||---0-----------0---------------------3-------------------||---2-----------3---------------------3-------------------||---3-----------1---------------------1-------------------Non mi svegliate ve ne prego
ma lasciate che io dorma questo sonno,
Sia tranquillo da bambino
sia che puzzi del russare da ubriaco.
Perch volete disturbarmi
se io forse sto sognando un viaggio alato
Sopra un carro senza ruote
trascinato dai cavalli del maestrale, nel maestrale... in volo.
Rit.
Non mi svegliate ve ne prego
ma lasciate che io dorma questo sonno,
C' ancora tempo per il giorno
quando gli occhi si imbevono di pianto, i miei occhi... di pianto.