Sei sulla pagina 1di 14

Distortion/Chorus Guitar

Standard Tuning
Comment: Came accross this from the internet. All credit goes to the original tabber and
to UG since it's in such high demand.

W
W
E E E E E E E E
E||-------------------|-------------------|----------------------11--12--|
B||-------------------|-------------------|--------9---------12----------|
G||-------------------|-------------------|--------------11--------------|
D||-------------------|-------------------|-----9-----9------------------|
A||-------------------|-------------------|--7---------------------------|
E||-------------------|-------------------|------------------------------|

|---3---|
E E E E E S S S E E
E E E E E E E E
--------------19--17--16h-17p-16---------|----------------------------------|
----------17---------------------19--17--|----------12----------14--16--17--|
-----------------------------------------|----------------------------------|
------18---------------------------------|------14----------14--------------|
--16-------------------------------------|--11----------12------------------|
-----------------------------------------|----------------------------------|

E E E Q
E E E
E E E E E E E E
---------------------------------|--------------------------16--17--|
----------17--16b----------------|----------21----------19----------|
---------------------16----------|----------------------------------|
------18-----------------16------|------21----------21--------------|
--16-------------------------14--|--19----------18------------------|
---------------------------------|----------------------------------|

E E E E E E E E
E E E E E E E E
----------------------------------|----------------------------------|
----------17--16------------------|----------12----------14--16--17--|
------------------16--------------|----------------------------------|
------18--------------16--14--13--|------14----------14--------------|
--16------------------------------|--11----------12------------------|
----------------------------------|----------------------------------|

E E E S S E E Q
E E E E E E E E
-----------------------------19~----|----------------------11--12--|
----------17-------------19---------|--------9---------12----------|

------------------------------------|--------------11--------------|
------18-------------21-------------|-----9-----9------------------|
--16----------16S-18----------------|--7---------------------------|
------------------------------------|------------------------------|

|---3---|
E E E E E S S S E E
E E E E E E E E
--------------19--17--16h-17p-16---------|----------------------------------|
----------17---------------------19--17--|----------12----------14--16--17--|
-----------------------------------------|----------------------------------|
------18---------------------------------|------14----------14--------------|
--16-------------------------------------|--11----------12------------------|
-----------------------------------------|----------------------------------|

E E E Q
E E E
E E E E E E E E
---------------------------------|--------------------------16--17--|
----------17--16b----------------|----------21----------19----------|
---------------------16----------|----------------------------------|
------18-----------------16------|------21----------21--------------|
--16-------------------------14--|--19----------18------------------|
---------------------------------|----------------------------------|

E E E E E E E E
E E E E E E E E
----------------------------------|----------------------------------|
----------17--16------------------|----------12----------14--16--17--|
------------------16--------------|----------------------------------|
------18--------------16--14--13--|------14----------14--------------|
--16------------------------------|--11----------12------------------|
----------------------------------|----------------------------------|

E E E S S E E Q
E E E E E E E E
-----------------------------19~----|----------------------------------|
----------17-------------19---------|----------14------16------17------|
------------------------------------|----------------------------------|
------18-------------21-------------|------14------14------14------14--|
--16----------16S-18----------------|--12------------------------------|
------------------------------------|----------------------------------|

E E E E H
E E E E E E E E
-----------------------------|----------------------------------|
----------14--16--16b--------|----------16------17------19--16--|

-----------------------------|----------------------------------|
------16---------------------|------16------16------16----------|
--13-------------------------|--14------------------------------|
-----------------------------|----------------------------------|

E E E E H
E E E E E E Q
-----------------------------|------------------------------|
----------16--17--19~--------|--17-----16--16-----14--14----|
-----------------------------|------------------------------|
------18---------------------|--18-----16--16-----14--14----|
--15-------------------------|--16-----14--14-----12--12----|
-----------------------------|------------------------------|

W
E E E E E E E E
E E E E H
--0----------------|----------------------------|------------------19~------|
--0----------------|--------4--------7----------|--16----------19-----------|
--2----------------|----------------------------|---------------------------|
--2----------------|-----4--------9---------16--|----------21---------------|
--0----------------|--2--------6--------14------|------18-------------------|
-------------------|----------------------------|---------------------------|

|---3---|
E E E E E E E E
E E E E E S S S E E
----------16------14--19----------|--------------19--17--16h-17p-16---------|
--------------------------16--17--|----------17---------------------19--17--|
------16------16------------------|-----------------------------------------|
--14------------------------------|------18---------------------------------|
----------------------------------|--16-------------------------------------|
----------------------------------|-----------------------------------------|
E E E E E E E E
E E E Q
E Q
----------------------------------|--------------21br-----L--19----|
----------12----------14--16--17--|----------17--------------------|
----------------------------------|--------------------------------|
------14----------14--------------|------18------------------------|
--11----------12------------------|--16----------------------------|
----------------------------------|--------------------------------|

E E E E E E E E
E E E E E E E E
--------------------------16--17--|----------------------------------|
----------21----------19----------|----------17--16------------------|
----------------------------------|------------------16--------------|

------21----------21--------------|------18--------------16--14--13--|
--19----------18------------------|--16------------------------------|
----------------------------------|----------------------------------|

E E E E E E E E
E E E E E E Q
----------------------------------|--------------------------19~----|
----------12----------14--16--17--|----------17----------19---------|
----------------------------------|---------------------------------|
------14----------14--------------|------18----------21-------------|
--11----------12------------------|--16----------18-----------------|
----------------------------------|---------------------------------|

PM PM
H
E E E E E Q E E E E E
------------------------|------------------------------|
--5--------5p--4--------|------------------------------|
------------------------|-------------------------9----|
------------------6--7--|--L--L--------------11--------|
------------------------|-----------------11-----------|
------------------------|--------------9---------------|

Q E Q E E E
Q.
Q Q E
----------------------------|-----------------------|
------------------------9b--|--L--------------------|
---L----11--11--------------|---------11----9-------|
----------------------------|-----------------------|
----------------------------|-----------------------|
----------------------------|-----------------------|

H
E E E E E E E E E E E E
----L----------L-------------|-----------------17--19--19b--19~--|
--/14~--------14--16-----17--|-----17--19--21--------------------|
-----------------------------|-----------------------------------|
-----------------------------|-----------------------------------|
-----------------------------|-----------------------------------|
-----------------------------|-----------------------------------|

H.
E E
W
H
E E E E
---L-------------L--19~--|--L----------------|------------------------|
-------------------------|-------------------|--5~--------5-----5--7--|
-------------------------|-------------------|---------------4--------|

-------------------------|-------------------|------------------------|
-------------------------|-------------------|------------------------|
-------------------------|-------------------|------------------------|

Q E E E E E E
Q E E E E E E
W
--------------------------|--------------------------|-------------------|
--L-------------7--9--9b--|--L----9--7--L--5--L--7~--|--L----------------|
-------4--4--L------------|--------------------------|-------------------|
--------------------------|--------------------------|-------------------|
--------------------------|--------------------------|-------------------|
--------------------------|--------------------------|-------------------|

H
E E E E Q E E E E E E
-----------------------------|------------------14--16--16b--|
--17~--------17------17--19--|--L----------------------------|
-----------------16----------|-------16--16--L---------------|
-----------------------------|-------------------------------|
-----------------------------|-------------------------------|
-----------------------------|-------------------------------|

PM PM PM
Q E Q Q E
W
E E E E E E E E
--L----16--14----------19~--|--L----------------|-------------------------12-|
-----------------17---------|-------------------|-----9-----10-----12--------|
----------------------------|-------------------|--9-----9------9------9-----|
----------------------------|-------------------|----------------------------|
----------------------------|-------------------|----------------------------|
----------------------------|-------------------|----------------------------|

PM PM PM
E E E E E E E E E E E E Q Q
-----11-----9---------------|---------------------------|
------------------12--------|-----5-----7--L----10br----|
--9------9-----9------9--4--|--L-----4------------------|
----------------------------|---------------------------|
----------------------------|---------------------------|
----------------------------|---------------------------|

PM PM
PM PM
E E E E H
E E E E E E E E
-------------------------|---------------------------|

--9--10--9--7~--L--------|--------9--10--------7--9--|
-------------------------|---------------------------|
-------------------------|-----9------------9--------|
-------------------------|--7------------6-----------|
-------------------------|---------------------------|

|---3--|
E E E E E S S S E E
E E E E E E E E
--------------19--17--16h-17p-16-----16--|----------------------------------|
----------17---------------------19------|----------12----------17----------|
-----------------------------------------|----------------------------------|
------18---------------------------------|------14----------19----------21--|
--16-------------------------------------|--11----------16----------18------|
-----------------------------------------|----------------------------------|

E E E E H
E E E E Q E E
------19--17--19~--L--------|--------------------------|
--19------------------------|--------9-----7----10--5--|
----------------------------|--------------------------|
----------------------------|-----9-----9--------------|
----------------------------|--7-----------------------|
----------------------------|--------------------------|

PH
T
E Q Q.
E E Q E Q.
E E
Q.
E H
------------------------|---------------------------|-----------------------|
--L--4------------------|---------------------------|-----------------------|
------------------------|---------------------------|-----------------------|
----------6~------4--2--|--1----2-------------------|-----------------------|
------------------------|----------4~------2--<>2~--|--L------14~---L-------|
------------------------|---------------------------|-----------------------|

E E E E E E E E
Q E E E E E E
----------------------------|-------------------12--11-------|
-----------7--9--10--9------|---------------------------12S--|
------------------------9S--|--11S----9--9~--L---------------|
--------9-------------------|--------------------------------|
-----7----------------------|--------------------------------|
----------------------------|--------------------------------|

E E E E

E E E H

--------12----14--16--17--16--|--17--19--21--19~--------L--|
--14--------------------------|----------------------------|
------------------------------|----------------------------|
------------------------------|----------------------------|
------------------------------|----------------------------|
------------------------------|----------------------------|

E E E E E E E E E E E E E E E E
-----0--------0--------0--|--------0-----------------|
--------7--------7--------|--7--------7--5--5-----7--|
--4--------4--------4-----|-----4--------2--2-----4--|
--------------------------|--------------------------|
--------------------------|--------------------------|
--------------------------|--------------------------|

E E E E E E E E E E E E E E E E
-----0--------0--------0--|--------0-----------------|
--L-----7--------7--------|--7--------7--5--5-----7--|
--L--------4--------4-----|-----4--------2--2-----4--|
--------------------------|--------------------------|
--------------------------|--------------------------|
--------------------------|--------------------------|

E E E E E E E E E E E E E E E E
-----0--------0--------0--|--------0-----------------|
--L-----7--------7--------|--7--------7--5--5-----7--|
--L--------4--------4-----|-----4--------2--2-----4--|
--------------------------|--------------------------|
--------------------------|--------------------------|
--------------------------|--------------------------|

E E E E E E E E E Q E Q E E
-----0--------0-----------|---------------------------|
--L-----7--------7-----7--|--L--7--------------9--10--|
--L--------4--------4--4--|--L--4-------/11-----------|
--------------------------|---------------------------|
--------------------------|---------------------------|
--------------------------|---------------------------|

H
E E E E H
Q E E
---------------------------|----------------------|

--10b--------10------------|----------------------|
-----------------9--L--9~--|--L--------L----L-----|
---------------------------|----------------------|
---------------------------|----------------------|
---------------------------|----------------------|

Q E E E E E E
Q. E Q Q
-------------------------------|-------------------------|
--/12----10--9--L--------------|------------/16----16----|
-------------------11--9--11~--|--L----------------------|
-------------------------------|-------------------------|
-------------------------------|-------------------------|
-------------------------------|-------------------------|

H
E Q
E
E Q H
E
----------------16br-----L--|---L----------------------|
--17~-----------------------|------19----17~-----------|
----------------------------|--------------------------|
----------------------------|--------------------------|
----------------------------|--------------------------|
----------------------------|--------------------------|

Q.
Q Q
E
W
----------16----16br---------|--------------------|
--19--------------------19~--|---L----------------|
-----------------------------|--------------------|
-----------------------------|--------------------|
-----------------------------|--------------------|
-----------------------------|--------------------|

E E E E E E E E
Q E E E E Q
-----------------------------|---------------12--11---------|
--------7--9--10--9--10--12--|---L----10--9----------14~----|
-----9-----------------------|------------------------------|
--7--------------------------|------------------------------|
-----------------------------|------------------------------|
-----------------------------|------------------------------|

H.
E E
E E E E E E E E
-----------------------|----------------------------------|
---L-------------------|----------14--16--17--19--17--19--|

-----------------------|----------------------------------|
-----------------------|------16--------------------------|
-------------------14--|---L------------------------------|
-----------------------|----------------------------------|

H.
S S E
H
Q E E
----------------------------|------------------------|
--19b------------19-17-19~--|---L--------L-----L-----|
----------------------------|------------------------|
----------------------------|------------------------|
----------------------------|------------------------|
----------------------------|------------------------|

E E E E E E Q
Q H.
--------------19--17------19br----|---L-----L~------------|
----------17----------17----------|-----------------------|
----------------------------------|-----------------------|
------18--------------------------|-----------------------|
--16------------------------------|-----------------------|
----------------------------------|-----------------------|

E E E E E E E E
E E E E H
----------------------------------|-----------------------------|
----------14------16------17------|----------14--16--16b--------|
----------------------------------|-----------------------------|
------14------14------14------14--|------16---------------------|
--12------------------------------|--13-------------------------|
----------------------------------|-----------------------------|

E E E E E E E E
E E E E H
----------------------------------|-----------------------------|
----------16------17------19--16--|----------16--17--19~--------|
----------------------------------|-----------------------------|
------16------16------16----------|------18---------------------|
--14------------------------------|--15-------------------------|
----------------------------------|-----------------------------|

E E E E E E Q
W
E E E E E E E E
------------------------------|--0----------------|--------------------------|
--17-----16--16-----14--14----|--0----------------|--------4--------7--------|
------------------------------|--2----------------|--------------------------|

--18-----16--16-----14--14----|--2----------------|-----4--------9--------16-|
--16-----14--14-----12--12----|--0----------------|--2--------6--------14----|
------------------------------|-------------------|--------------------------|

E E E E H
E E E E E E E E
------------------19~--------|----------------------11--12--|
--16----------19-------------|--------9---------12----------|
-----------------------------|--------------11--------------|
----------21-----------------|-----9-----9------------------|
------18---------------------|--7---------------------------|
-----------------------------|------------------------------|

|---3---|
E E E E E S S S E E
E E E E E E E E
--------------19--17--16h-17p-16---------|----------------------------------|
----------17---------------------19--17--|----------12----------14--16--17--|
-----------------------------------------|----------------------------------|
------18---------------------------------|------14----------14--------------|
--16-------------------------------------|--11----------12------------------|
-----------------------------------------|----------------------------------|

E E E Q E E E
E E E E E E E E
---------------------------------|--------------------------16--17--|
----------17--16b----------------|----------21----------19----------|
---------------------16----------|----------------------------------|
------18-----------------16------|------21----------21--------------|
--16-------------------------14--|--19----------18------------------|
---------------------------------|----------------------------------|

E E E E E E E E
E E E E E E E E
----------------------------------|----------------------------------|
----------17--16------------------|----------12----------14--16--17--|
------------------16--------------|----------------------------------|
------18--------------16--14--13--|------14----------14--------------|
--16------------------------------|--11----------12------------------|
----------------------------------|----------------------------------|

PM PM PM PM PM PM
E E E E E E Q
E E E E E E E E
--------------------------19~----|--------------------------|
----------17----------19---------|--5--5--5--4--4--2--2-----|

---------------------------------|-----------------------1--|
------18----------21-------------|--------------------------|
--16----------18-----------------|--------------------------|
---------------------------------|--------------------------|

E E H
E E
E E E E E E E E
------------------------|--------------------------------19~--|
------------------------|-------17------19~---L--17--16-------|
--2--1------------------|--/16------16------------------------|
--------4~--------L-----|-------------------------------------|
------------------------|-------------------------------------|
------------------------|-------------------------------------|

E E E H
E E E E E E E E E
---L--17--16----------------|----------------------------|
--------------19~-----------|----------------------------|
----------------------------|-------------------------8--|
----------------------------|-----9--L-----11---L--------|
----------------------------|--7--------7----------7-----|
----------------------------|----------------------------|

T
E E E E E E Q
Q.
H
SS E E E H
E
--------------------------|-------------------------|-----------------------|
--------------7--9--9b----|--L------21pb--------9-7-|--9--7-----12~---------|
--L-----9--L--------------|-------------------------|--------9--------------|
--------------------------|-------------------------|-----------------------|
-----7--------------------|-------------------------|-----------------------|
--------------------------|-------------------------|-----------------------|

S SE E S SE E S SE E S SS SSS H
--------------------------------|-----------------9-12b--------|
--------------------------------|---------------9--------------|
-------9--9-------9--9-------9--|--9-------9-11----------------|
--9-11-------9-11-------9-11----|-----9-11---------------------|
--------------------------------|------------------------------|
--------------------------------|------------------------------|

|---3--| |---3---|
E E E E E E SS S SSSS S
--11--9--11--12--11--12----------------------|

-------------------------10-9-10-------------|
---------------------------------11-9-8-9-11-|
---------------------------------------------|
---------------------------------------------|
---------------------------------------------|

S SS S E E Q E E
E H.
S S
-------9-11-12--11---------12--14--|--16--16b------------16b-16-|
--9-10--------------14~------------|----------------------------|
-----------------------------------|----------------------------|
-----------------------------------|----------------------------|
-----------------------------------|----------------------------|
-----------------------------------|----------------------------|

E H.
E
E E E E E E E E
--14--16~---------------|-----------19--17---L--16-----12--|
------------------------|-------17-------------------------|
------------------------|--/16-----------------------------|
------------------------|----------------------------------|
------------------------|----------------------------------|
------------------------|----------------------------------|

E E E E E E E E E E E E E E E E
---L--11----------------------|--------------------------|
----------12------------------|--------9-----------7-----|
--------------11--9--8--------|--------------------------|
------------------------9-----|-----9-----------9-----7--|
---------------------------9--|--7--------6--L-----------|
------------------------------|--------------------------|

E Q H
E E E E E E E E E E E E E E E Q
----------------------|--------------------------|-------------------------|
----------5-----------|--------9-----------7--5--|-----4-----2-----4--5----|
-----4----------------|-----------------------4--|-----4-----4-----4--4----|
--L-------------------|-----9-----------9--------|-------------------------|
----------------------|--7--------6--L-----------|-------------------------|
----------------------|--------------------------|-------------------------|

E E E E E E E E E Q H
E Q. E E E E E
--------------------------|----------------------|--5------4--------------|
--------9-----------7-----|----------5-----------|--5------5-----7-----5--|

--------------------------|-----4----------------|---------------4-----4--|
-----9-----------9-----7--|--L-------------------|------------------------|
--7--------6--L-----------|----------------------|------------------------|
--------------------------|----------------------|------------------------|

E E E E H
W
--------------4--------|--L----------------||
-----4-----5--5--------|--L----------------||
-----4--------4--------|--L----------------||
--------------6--------|--L----------------||
--------------7--------|--L----------------||
-----------------------|-------------------||

Duration Legend
--------------W - whole
H - half
Q - quarter
E - 8th
S - 16th
T - 32nd
X - 64th
. - note dotted
|-n-| - n-tuplets

Tablature Legend
---------------L - tied note
x - dead note
g - grace note
(n) - ghost note
> - accentuded note
NH - natural harmonic
AH - artificial harmonic
TH - tapped harmonic
SH - semi harmonic
PH - pitch harmonic
h - hammer on
p - pull off
b - bend
br - bendRelease
pb - preBend
pbr - preBendRelease

brb - bendReleaseBend
n/ - tremolo bar dip
n - tremolo bar dive
-/n - tremolo bar Release up
/n - tremolo bar inverted dip
/n - tremolo bar return
-n - tremolo bar Release down
S - shift slide
s - legato slide
/ - slide into from below or out of upwards
- slide into from above or out of downwards
~ - vibrato
W - wide vibrato
tr - trill
TP - tremolo picking
T - tapping
S - slap
P - pop
< - fade in
^ - brush up
v - brush down