Scopri milioni di ebook, audiolibri, riviste e altro ancora

Solo $11.99/mese al termine del periodo di prova. Cancella quando vuoi.

I miei libri di lick

I miei libri di lick

Leggi anteprima

I miei libri di lick

Lunghezza:
455 pagine
46 minuti
Editore:
Pubblicato:
30 ott 2017
ISBN:
9788885691209
Formato:
Libro

Descrizione

In questo ebook trovi:
INTRODUZIONE
PARTE PRIMA: LICK SENZA TECNICHE CHITARRISTICHE PARTICOLARI
Lick con due corde
Lick con tre corde
Lick con quattro corde
Lick con cinque corde
Lick con 6 corde
PARTE SECONDA: LICK CON TECNICHE CHITARRISTICHE PARTICOLARI
Lick per la Pennata Alternata
Lick con due o più Corde
Lick per l’Hammer on
Lick per il Pull off
Lick per il Tremolo
Lick per il Palm Mute
Lick per lo Slide
Lick per il Bending
Lick per il Release
Lick per il Fingerpicking
Lick per il Tapping
PARTE TERZA: LICK CON LA COMBINAZIONE DI DUE TECNICHE CHITARRISTICHE
Lick per l’Hammer on e il Pull off
Lick per il Bending e il Release
Lick per il Bending e il Pull off
Lick per lo Slide e l’Hammer on
Lick per lo Slide e il Pull off. 201
Lick per il Palm Mute e l’Hammer on
Lick per la Ghost Note e il Pull off
Lick per il Palm Mute e il Bending
Lick per lo Slide e il Fingerpicking
CONCLUSIONE
 
Editore:
Pubblicato:
30 ott 2017
ISBN:
9788885691209
Formato:
Libro

Informazioni sull'autore


Correlato a I miei libri di lick

Leggi altro di Barbara Polacchi

Libri correlati

Anteprima del libro

I miei libri di lick - Barbara Polacchi

PARTE PRIMA: LICK SENZA TECNICHE CHITARRISTICHE PARTICOLARI

Lick con una sola corda

I lick di questo capitolo sono da ripetersi su tutte le corde.

1)

E-----------------------------------------------------------------------------------

B-----------------------------------------------------------------------------------

G-----------------------------------------------------------------------------------

D-----------------------------------------------------------------------------------

A-----------------------------------------------------------------------------------

E-15-17-19-20-19-17-15-13-15-17-19-17-15-13-12-13-15-17-15-13-12-10-12-13-15-13-12--

E-------

B-------

G-------

D-------

A-------

E-10-8--

2)

E-15-19-17-15-16-14-11-12-14-12-13-15-12-14-7-9-11-8-10-12-8-10-8-7-9-8-10-9-11-12--

B-----------------------------------------------------------------------------------

G-----------------------------------------------------------------------------------

D-----------------------------------------------------------------------------------

A-----------------------------------------------------------------------------------

E-----------------------------------------------------------------------------------

E-10-12-13-10-12-7-9-8-10-12-16-12-14-12-13-15-12-14--

B-----------------------------------------------------

G-----------------------------------------------------

D-----------------------------------------------------

A-----------------------------------------------------

E-----------------------------------------------------

3)

E--------------------------------------------------------

B--------------------------------------------------------

G--------------------------------------------------------

D--------------------------------------------------------

A-8-9-10-9-8-7-10-12-10-8-12-14-12-10-13-14-15-14-13-12--

E--------------------------------------------------------

4)

E----------------------------------------------------

B----------------------------------------------------

G----------------------------------------------------

D-5-7-6-5-9-8-7-10-8-12-10-12-14-10-12-8-9-10-6-7-9--

A----------------------------------------------------

E----------------------------------------------------

5)

E-10-13-12-10-13-12-10-12-10-13-12-10-12-10-14-12-10-8-13-8-12-8-10-8-10-12-14-10--

B----------------------------------------------------------------------------------

G----------------------------------------------------------------------------------

D----------------------------------------------------------------------------------

A----------------------------------------------------------------------------------

E----------------------------------------------------------------------------------

E-12-10-12-13-10-12-10-12-13-10-12-13-10-15-10-13-10-12-10--

B-----------------------------------------------------------

G-----------------------------------------------------------

D-----------------------------------------------------------

A-----------------------------------------------------------

E-----------------------------------------------------------

6)

E-----------------------------------------------------------------------------------

B-----------------------------------------------------------------------------------

G-----------------------------------------------------------------------------------

D-7-9-7-8-7-8-7-10-9-10-7-10-8-10-7-10-8-9-12-11-12-8-12-10-12-8-12-10-13-12-13-10--

A-----------------------------------------------------------------------------------

E-----------------------------------------------------------------------------------

E--------------------------------------------------

B--------------------------------------------------

G--------------------------------------------------

D-13-12-13-10-13-12-15-14-15-12-15-13-15*12-15-14--

A--------------------------------------------------

E--------------------------------------------------

7)

E-----------------------------------------------------------------------

B-4-0-2-5-2-4-2-4-2-7-5-6-4-5-3-4-2-7-3-5-8-5-7-5-7-5-10-8-9-7-8-6-7-5--

G-----------------------------------------------------------------------

D-----------------------------------------------------------------------

A-----------------------------------------------------------------------

E-----------------------------------------------------------------------

8)

E-8-4-8-5-8-7-5-8-6-8-5-7-5-7-8-7-5-7-6-7-5-7-5-7-5-7-5-7-8-5-7-6-5-7-5-7-5-7-8-7-6-

B-----------------------------------------------------------------------------------

G-----------------------------------------------------------------------------------

D-----------------------------------------------------------------------------------

A-----------------------------------------------------------------------------------

E-----------------------------------------------------------------------------------

E-7-5-7--

B--------

G--------

D--------

A--------

E--------

9)

E-----------------------------------------------------------------------------------

B-----------------------------------------------------------------------------------

G-13-15-16-15-13-15-16-13-16-13-15-16-13-16-13-16-15-13-15-13-15-16-13-16-13-16-15--

D-----------------------------------------------------------------------------------

A-----------------------------------------------------------------------------------

E-----------------------------------------------------------------------------------

E--------------------------------------

B--------------------------------------

G-13-15-13-15-16-13-16-13-16-15-13-15--

D--------------------------------------

A--------------------------------------

E--------------------------------------

10)

E-15-13-10-6-5-3-1-2-3-2-5-3-0-3-0-1-3-0-2-3-0-3-0-3-0-2-3-0-1-3-0-3-2-0-3-2-3-2-3--

B-----------------------------------------------------------------------------------

G-----------------------------------------------------------------------------------

D-----------------------------------------------------------------------------------

A-----------------------------------------------------------------------------------

E-----------------------------------------------------------------------------------

E-2-5-3-2-3-2-3-2-3-2-0--

B------------------------

G------------------------

D------------------------

A------------------------

E------------------------

11)

E-----------------------------------------------------------------------------------

B-----------------------------------------------------------------------------------

G-----------------------------------------------------------------------------------

D-----------------------------------------------------------------------------------

A-----------------------------------------------------------------------------------

E-7-6-5-9-7-9-7-5-4-7-5-3-4-2-5-3-2-0-3-2-0-2-3-0-2-4-3-5-2-4-5-7-4-5-7-9-5-7-9-7-6-

E-------------------------------------------------------------------

B-------------------------------------------------------------------

G-------------------------------------------------------------------

D-------------------------------------------------------------------

A-------------------------------------------------------------------

E-7-6-5-6-4-6-4-2-4-2-1-2-14-2-4-2-4-6-4-5-4-5-7-5-7-5-7-9-7-9-7-9--

12)

E----------------------------------------------------

B----------------------------------------------------

G-5-7-6-5-9-8-7-10-8-12-10-12-14-10-12-8-9-10-6-7-9--

D----------------------------------------------------

A----------------------------------------------------

E----------------------------------------------------

13)

E--------------------------------------------------------

B--------------------------------------------------------

G--------------------------------------------------------

D--------------------------------------------------------

A--------------------------------------------------------

E-12-13-14-15-14-13-10-12-14-12-8-10-12-10-7-8-9-10-9-8--

14)

E----------------------------------------------------------------------------------

B----------------------------------------------------------------------------------

G----------------------------------------------------------------------------------

D----------------------------------------------------------------------------------

A----------------------------------------------------------------------------------

E-8-10-12-13-15-13-12-10-12-13-15-17-15-13-12-13-15-17-19-17-15-13-15-17-19-20-19--

E--------

B--------

G--------

D--------

A--------

E-17-15—

Lick con due corde

Anche questi lick ti consiglio di ripeterli su tutte le coppie di corde (quando è possibile).

15)

E-----------------------------------------------------------------------------------

B-----------------------------------------------------------------------------------

G-----------------------------------------------------------------------------------

D-----------------------------------------------------------------------------------

A-------------12----------12----------12----------13----------13----------13--------

E-13-10-15-10----10-13-10----10-12-10----12-17-12----12-15-12----12-15-12----12-13--

E--------------------------------------------------------------------------------

B--------------------------------------------------------------------------------

G--------------------------------------------------------------------------------

D--------------------------------------------------------------------------------

A----13----------11----------11----------11----------10----------10----------10--

E-12----10-15-10----10-13-10----10-12-10----10-15-10----10-13-10----13-12-10-----

16)

E----------7-8-10-12-6----------------8-10-12-13-8------------------10-12-13-15-10--

B-5-6-8-10-------------10-6-5-6-10-12--------------12-10-8-10-12-13-----------------

G-----------------------------------------------------------------------------------

D-----------------------------------------------------------------------------------

A-----------------------------------------------------------------------------------

E-----------------------------------------------------------------------------------

E-------------------12-13-15-17-12----------12-6--------13-8---------15-10---------

B-13-12-10-12-13-15----------------15-13-12------10-8-6------12-10-8-------13--12--

G----------------------------------------------------------------------------------

D----------------------------------------------------------------------------------

A----------------------------------------------------------------------------------

E----------------------------------------------------------------------------------

E----17-12-----------

Hai raggiunto la fine di questa anteprima. per continuare a leggere!
Pagina 1 di 1

Recensioni

Cosa pensano gli utenti di I miei libri di lick

0
0 valutazioni / 0 Recensioni
Cosa ne pensi?
Valutazione: 0 su 5 stelle

Recensioni dei lettori